Rencontres
Now Reading
Cover – Laura Marling – Blackberry Stone
3

Cover – Laura Marling – Blackberry Stone (avec Tatiana)

Laura_Marling_blackberry_stone_chordMa petite amie aime bien chanter à ses heures perdues. C’est une grande fan de Laura Marling et elle me demande souvent si je peux lui jouer ses morceaux.

On a essayé de faire une reprise de sa chanson Blackberry Stone.

A la guitare, il n’y a pas de quoi casser trois pattes à un canard, mais pour les personnes désirant s’accompagner au chant, ce morceau est parfait.

Ma copine est une grande timide, elle a eu du mal a bien se lâcher devant la caméra, mais j’apprécie toujours autant d’entendre sa voix sans artifice et sans « vibes » (ça change des merdes qu’on nous passe à la télé). Après c’est sur, je ne suis pas très objectif ! 😀

A propos de Laura Marling

Laura-marling-blackberry-stone-guitar-tabCette jeune artiste (je peux me permettre, elle est plus jeune que moi de 6 ans!), a déjà réalisé trois albums à ma connaissance. Mon préféré est le premier album : Alas I Cannot Swim.

Anglaise, et issue d’une famille de musicien, son père lui apprend la guitare très jeune.

Au tout début de sa carrière elle faisais déjà la première partie de Neil Young ! (en plus c’était en France en 2009)

Tablature de Laura Marling – Blackberry Stone

Capo on 2nd

Intro:
|---------------------------------|
|---1---1---1---1---1---1---0---0-|
|---2---2---2---2---0---0---0---0-|
|-----2-------2------0H2----------|
|-0-------0-------3----------0H2--|
|-------------------------3-------|

|---------------------------------|
|---1---1---1---1---1---1---1-----|
|---2---2---2---2---2---2---2-----|
|-----2-------2-------2-------2---|
|-0-------0-------0-------0-------|
|---------------------------------|

Verse:
|---------------------------------|
|---1---1---1---1---1---1---1---1-|
|---2---2---2---2---0---0---0---0-|
|-----2-------2-------2-------2---|
|-0-------0-------3-------3-------|
|---------------------------------|
Well I,    own this field,

|---------------------------------|
|---1---1---1---1---1---1---1---1-|
|---2---2---2---2---0---0---0---0-|
|-----2-------2-------2-------2---|
|-0-------0-------3-------3-------|
|---------------------------------|
and I,     wrote this sky,

|---------------------------------|
|---1---1---1---1---1---1---1---1-|
|---2---2---2---2---0---0---0---0-|
|-----2-------2-------2-------0---|
|-0-------0-------3-------2-------|
|---------------------------------|
And I,     have no reason, to reason with you.

|---------------------------------|
|---1---1---1---1---1---1---------|
|---2---2---2---2---2---2---------|
|---------------------------------|
|-----3-------3-------3-----------|
|-1-------1-------1-------1-------|

|---------------------------------|
|---1---1---1---1---1---1---1---1-|
|.--2---2---2---2---0---0---0---0-|
|.----2-------2-------2-------2---|
|-0-------0-------3-------3-------|
|---------------------------------|
(1)I'd be sad that I never held your hand as you were lowered,
(2)I'd be sad that I never held your hand as you were lowered,

|---------------------------------|
|---0---0---0---0---1---1---1---1-|
|---0---0---0---0---2---2---2---2.|
|---------------------2-------2--.|
|-----2-------2---0-------0-------|
|-3-------3-----------------------|
(1)but I'd understand that I'd never let it go.
(2)but I'd understand the world does what it does.

Chorus:
|---3---3---0---0---3---3---3---3-|
|---1---1---1---1---0---0---0---0-|
|.--2---2---0---0---0---0---0---0.|
|.3---3---2---2------------------.|
|---------------------2-------2---|
|-----------------3-------3-------|
(1)And you never did learn to let the little things go,
(2)And you neverl did learn to let me be.

|---3---3---0---0---3---3---3---3-|
|---1---1---1---1---0---0---0---0-|
|---2---2---0---0---0---0---0---0-|
|-3---3---2---2-------------------|
|---------------------2-------2---|
|-----------------3-------3-------|
And you never did learn to let little people grow,

|---3---3---0---0---3---3---3---3-||---3---3---3---(3)-|
|---1---1---1---1---0---0---0---0-||---0---0---0---(0)-|
|---2---2---0---0---0---0---0---0-||---0---0---0---(0)-|
|-3---3---2---2-------------------||-------------------|
|---------------------2-------2---||-----2-------2-----|
|-----------------3-------3-------||-3-------3---------|
And you never did learn how to see.

Verse 2:
|---------------------------------|
|---1---1---1---1---1---1---1---1-|
|---2---2---2---2---0---0---0---0-|
|-----2-------2-------2-------2---|
|-0-------0-------3-------3-------|
|---------------------------------|
But I whisper that I love this man, now and for forever,

|---------------------------------|
|---0---0---0---0---1---1---1---1-|
|---0---0---0---0---2---2---2---2-|
|---------------------2-------2---|
|-----2-------2---0-------0-------|
|-3-------3-----------------------|
To your soul as it floats out of the window.

|---------------------------------|
|---1---1---1---1---0---0---0---0-|
|---2---2---0---0---0---0---0---0-|
|-----2-------2-------------------|
|-0-------3-----------2-------2---|
|-----------------3-------3-------|
To the world that you turned your back on,

|---------------------------------||-------------------|
|---1---1---1---1---0---0---0---0-||---0---0---0---(0)-|
|---2---2---0---0---0---0---0---0-||---0---0---0---(0)-|
|-----2-------2-------------------||-------------------|
|-0-------3-----------2-------2---||-----2-------2-----|
|-----------------3-------3-------||-3-------3---------|
To the world that never really let you be.

|---------------------------------|
|---1---1---1---1---1---1---1---1-|
|---2---2---2---2---0---0---0---0-|
|-----2-------2-------2-------2---|
|-0-------0-------3-------3-------|
|---------------------------------|
And I am Laura now, and Laura still,

Chorus:
|---3---3---0---0---3---3---3---3-|
|---1---1---1---1---0---0---0---0-|
|.--2---2---0---0---0---0---0---0.|
|.3---3---2---2------------------.|
|---------------------2-------2---|
|-----------------3-------3-------|
(1)And you did always say that one day I would suffer.
(2)You did always say that people get their pay.

|---3---3---0---0---3---3---3---3-|
|---1---1---1---1---0---0---0---0-|
|---2---2---0---0---0---0---0---0-|
|-3---3---2---2-------------------|
|---------------------2-------2---|
|-----------------3-------3-------|
You did always say that I was going places,

|---3---3---0---0---3---3---3---3-||---3---3---3---(3)-|
|---1---1---1---1---0---0---0---0-||---0---0---0---(0)-|
|---2---2---0---0---0---0---0---0-||---0---0---0---(0)-|
|-3---3---2---2-------------------||-------------------|
|---------------------2-------2---||-----2-------2-----|
|-----------------3-------3-------||-3-------3---------|
And that you wouldn't have it any other way.

Vos commentaires sont toujours les bienvenus…

N’hésitez pas à me laisser un message ça me fait toujours plaisir ! Pour être sûr de ne pas rater mes prochaines vidéo vous pouvez vous abonnez à ce blog avec facebook ou twitter. Vous pouvez également partager cette vidéo sur vos réseaux sociaux favoris.

About The Author
Guitare Tablatures
Passionné par la guitare et ses sonorités, j'ai crée ce site pour proposer les tablatures que j'ai apprécié ou trouvé amusante. Travaillé ces morceaux est un bon moyen de progresser dans la pratique de son instrument de manière ludique.
3 Comments
  • 10 décembre 2013 at 12 h 47 min

    C’est bien dommage, car on sent qu’elle a des capacités sous sa timidité. Mais oui, pourquoi pas des enregistrements audio? Fais-lui part de mes encouragements en tout cas 🙂

    Bill

  • 8 décembre 2013 at 13 h 39 min

    Poser devant une caméra n’est pas chose facile pour tout le monde, c’est très courageux de l’avoir fait. Le résultat est plutôt pas mal, je vous encourage à en faire d’autres . Je suis assez fan des covers surtout quand elles sont bien faites 🙂
    Bill

    • Otton
      10 décembre 2013 at 11 h 02 min

      Depuis cette vidéo, elle ne veux plus faire d’enregistrements ! Quand elle s’est aperçu que notre vidéo avait été visionné plus de 1000 fois sur youtube (ce qui est peu pourtant ^^) ça l’a rendu timide. Il faudrait que je lui propose des enregistrements uniquement audio… A voir car j’ai déjà beaucoup de projets sur le feu, sans parler des cours qui me prenne pas mal de temps.

Leave a Response